ISO-10303-21;
HEADER;
FILE_DESCRIPTION (( 'STEP AP203' ),
    '1' );
FILE_NAME ('BK7-BSC-25.4-400-700.STEP',
    '2020-12-22T03:18:32',
    ( '' ),
    ( '' ),
    'SwSTEP 2.0',
    'SolidWorks 2020',
    '' );
FILE_SCHEMA (( 'CONFIG_CONTROL_DESIGN' ));
ENDSEC;

DATA;
#1 = PLANE ( 'NONE',  #248 ) ;
#2 = DIRECTION ( 'NONE',  ( 1.000000000000000000, -2.220446049250312588E-16, 0.000000000000000000 ) ) ;
#3 = DIRECTION ( 'NONE',  ( 1.000000000000000000, 0.000000000000000000, 0.000000000000000000 ) ) ;
#4 = ADVANCED_FACE ( 'NONE', ( #220 ), #320, .F. ) ;
#5 = FACE_OUTER_BOUND ( 'NONE', #14, .T. ) ;
#6 = FACE_OUTER_BOUND ( 'NONE', #45, .T. ) ;
#7 = CARTESIAN_POINT ( 'NONE',  ( -12.69999999999999574, -12.69999999999999396, -12.69999999999999929 ) ) ;
#8 = APPROVAL_PERSON_ORGANIZATION ( #75, #156, #219 ) ;
#9 = CARTESIAN_POINT ( 'NONE',  ( -12.70000000000000284, 12.70000000000000284, 12.69999999999999929 ) ) ;
#10 = PRODUCT_DEFINITION ( 'UNKNOWN', '', #57, #250 ) ;
#11 = LINE ( 'NONE', #207, #119 ) ;
#12 = CARTESIAN_POINT ( 'NONE',  ( -12.69999999999999574, -12.69999999999999396, -12.69999999999999929 ) ) ;
#13 = CARTESIAN_POINT ( 'NONE',  ( -12.69999999999999751, -12.69999999999999929, -12.69999999999999929 ) ) ;
#14 = EDGE_LOOP ( 'NONE', ( #74, #142, #26 ) ) ;
#15 = DATE_TIME_ROLE ( 'creation_date' ) ;
#16 = MECHANICAL_CONTEXT ( 'NONE', #321, 'mechanical' ) ;
#17 = EDGE_LOOP ( 'NONE', ( #268, #169, #212, #22 ) ) ;
#18 = CC_DESIGN_APPROVAL ( #167, ( #10 ) ) ;
#19 = APPLICATION_CONTEXT ( 'configuration controlled 3d designs of mechanical parts and assemblies' ) ;
#20 = ADVANCED_FACE ( 'NONE', ( #5 ), #1, .T. ) ;
#21 = VECTOR ( 'NONE', #205, 1000.000000000000000 ) ;
#22 = ORIENTED_EDGE ( 'NONE', *, *, #318, .T. ) ;
#23 = LOCAL_TIME ( 11, 18, 32.00000000000000000, #115 ) ;
#24 = CC_DESIGN_PERSON_AND_ORGANIZATION_ASSIGNMENT ( #291, #161, ( #72 ) ) ;
#25 = ORIENTED_EDGE ( 'NONE', *, *, #138, .F. ) ;
#26 = ORIENTED_EDGE ( 'NONE', *, *, #81, .T. ) ;
#27 = AXIS2_PLACEMENT_3D ( 'NONE', #203, #157, #154 ) ;
#28 = EDGE_CURVE ( 'NONE', #95, #141, #303, .T. ) ;
#29 = AXIS2_PLACEMENT_3D ( 'NONE', #82, #171, #299 ) ;
#30 = CARTESIAN_POINT ( 'NONE',  ( -12.69999999999999574, -12.69999999999999396, 12.69999999999999929 ) ) ;
#31 = CC_DESIGN_PERSON_AND_ORGANIZATION_ASSIGNMENT ( #181, #92, ( #57 ) ) ;
#32 = CARTESIAN_POINT ( 'NONE',  ( -12.69999999999999751, -12.69999999999999929, -12.69999999999999929 ) ) ;
#33 = UNCERTAINTY_MEASURE_WITH_UNIT (LENGTH_MEASURE( 1.000000000000000082E-05 ), #200, 'distance_accuracy_value', 'NONE');
#34 = DIRECTION ( 'NONE',  ( 0.000000000000000000, 0.000000000000000000, 1.000000000000000000 ) ) ;
#35 = PLANE ( 'NONE',  #29 ) ;
#36 = EDGE_CURVE ( 'NONE', #54, #191, #60, .T. ) ;
#37 = DIRECTION ( 'NONE',  ( 0.7071067811865475727, 0.7071067811865475727, 0.000000000000000000 ) ) ;
#38 = CARTESIAN_POINT ( 'NONE',  ( 12.69999999999999574, 12.69999999999999574, -12.69999999999999929 ) ) ;
#39 = DIRECTION ( 'NONE',  ( 2.220446049250312588E-16, -1.000000000000000000, 0.000000000000000000 ) ) ;
#40 = FACE_OUTER_BOUND ( 'NONE', #17, .T. ) ;
#41 = AXIS2_PLACEMENT_3D ( 'NONE', #147, #66, #124 ) ;
#42 = PERSON_AND_ORGANIZATION_ROLE ( 'design_owner' ) ;
#43 = CALENDAR_DATE ( 2020, 22, 12 ) ;
#44 = ORIENTED_EDGE ( 'NONE', *, *, #231, .F. ) ;
#45 = EDGE_LOOP ( 'NONE', ( #44, #193, #238 ) ) ;
#46 = CC_DESIGN_PERSON_AND_ORGANIZATION_ASSIGNMENT ( #47, #160, ( #10 ) ) ;
#47 = PERSON_AND_ORGANIZATION ( #73, #234 ) ;
#48 = EDGE_CURVE ( 'NONE', #270, #158, #58, .T. ) ;
#49 = ORIENTED_EDGE ( 'NONE', *, *, #197, .T. ) ;
#50 = EDGE_CURVE ( 'NONE', #53, #273, #121, .T. ) ;
#51 = VECTOR ( 'NONE', #2, 1000.000000000000000 ) ;
#52 = EDGE_LOOP ( 'NONE', ( #163, #221, #78, #77 ) ) ;
#53 = VERTEX_POINT ( 'NONE', #80 ) ;
#54 = VERTEX_POINT ( 'NONE', #99 ) ;
#55 = VECTOR ( 'NONE', #227, 1000.000000000000000 ) ;
#56 = DIRECTION ( 'NONE',  ( -0.000000000000000000, -0.000000000000000000, -1.000000000000000000 ) ) ;
#57 = PRODUCT_DEFINITION_FORMATION_WITH_SPECIFIED_SOURCE ( 'ANY', '', #166, .NOT_KNOWN. ) ;
#58 = LINE ( 'NONE', #9, #55 ) ;
#59 = DIRECTION ( 'NONE',  ( -0.7071067811865475727, -0.7071067811865475727, 0.000000000000000000 ) ) ;
#60 = LINE ( 'NONE', #123, #187 ) ;
#61 = LINE ( 'NONE', #100, #283 ) ;
#62 =( NAMED_UNIT ( * ) PLANE_ANGLE_UNIT ( ) SI_UNIT ( $, .RADIAN. ) );
#63 = DIRECTION ( 'NONE',  ( -0.7071067811865474617, -0.7071067811865474617, 0.000000000000000000 ) ) ;
#64 = LINE ( 'NONE', #229, #21 ) ;
#65 = LINE ( 'NONE', #249, #208 ) ;
#66 = DIRECTION ( 'NONE',  ( 0.000000000000000000, 0.000000000000000000, 1.000000000000000000 ) ) ;
#67 = ADVANCED_FACE ( 'NONE', ( #198 ), #173, .F. ) ;
#68 = PERSON_AND_ORGANIZATION ( #73, #234 ) ;
#69 = PERSON_AND_ORGANIZATION ( #73, #234 ) ;
#70 = VECTOR ( 'NONE', #280, 1000.000000000000000 ) ;
#71 = DIRECTION ( 'NONE',  ( 1.000000000000000000, 0.000000000000000000, 0.000000000000000000 ) ) ;
#72 = SECURITY_CLASSIFICATION ( '', '', #186 ) ;
#73 = PERSON ( 'UNSPECIFIED', 'UNSPECIFIED', 'UNSPECIFIED', ('UNSPECIFIED'), ('UNSPECIFIED'), ('UNSPECIFIED') ) ;
#74 = ORIENTED_EDGE ( 'NONE', *, *, #311, .T. ) ;
#75 = PERSON_AND_ORGANIZATION ( #73, #234 ) ;
#76 =( GEOMETRIC_REPRESENTATION_CONTEXT ( 3 ) GLOBAL_UNCERTAINTY_ASSIGNED_CONTEXT ( ( #33 ) ) GLOBAL_UNIT_ASSIGNED_CONTEXT ( ( #200, #62, #232 ) ) REPRESENTATION_CONTEXT ( 'NONE', 'WORKASPACE' ) );
#77 = ORIENTED_EDGE ( 'NONE', *, *, #50, .T. ) ;
#78 = ORIENTED_EDGE ( 'NONE', *, *, #81, .F. ) ;
#79 = VECTOR ( 'NONE', #279, 1000.000000000000000 ) ;
#80 = CARTESIAN_POINT ( 'NONE',  ( 12.69999999999999929, -12.69999999999999929, 12.69999999999999929 ) ) ;
#81 = EDGE_CURVE ( 'NONE', #53, #95, #286, .T. ) ;
#82 = CARTESIAN_POINT ( 'NONE',  ( -12.69999999999999751, -12.69999999999999929, 12.69999999999999929 ) ) ;
#83 = DIRECTION ( 'NONE',  ( 1.000000000000000000, -2.220446049250312588E-16, 0.000000000000000000 ) ) ;
#84 = LINE ( 'NONE', #12, #93 ) ;
#85 = PLANE ( 'NONE',  #102 ) ;
#86 = LINE ( 'NONE', #32, #112 ) ;
#87 = CARTESIAN_POINT ( 'NONE',  ( 0.000000000000000000, 0.000000000000000000, -12.69999999999999929 ) ) ;
#88 = VECTOR ( 'NONE', #109, 1000.000000000000000 ) ;
#89 = CARTESIAN_POINT ( 'NONE',  ( 0.000000000000000000, 0.000000000000000000, 0.000000000000000000 ) ) ;
#90 = ADVANCED_FACE ( 'NONE', ( #304 ), #281, .F. ) ;
#91 = PERSON_AND_ORGANIZATION ( #73, #234 ) ;
#92 = PERSON_AND_ORGANIZATION_ROLE ( 'creator' ) ;
#93 = VECTOR ( 'NONE', #101, 1000.000000000000000 ) ;
#94 = ORIENTED_EDGE ( 'NONE', *, *, #226, .T. ) ;
#95 = VERTEX_POINT ( 'NONE', #176 ) ;
#96 = EDGE_CURVE ( 'NONE', #191, #294, #61, .T. ) ;
#97 = DATE_AND_TIME ( #188, #239 ) ;
#98 = ADVANCED_FACE ( 'NONE', ( #310 ), #150, .T. ) ;
#99 = CARTESIAN_POINT ( 'NONE',  ( 12.69999999999999574, 12.69999999999999574, 12.69999999999999929 ) ) ;
#100 = CARTESIAN_POINT ( 'NONE',  ( 12.69999999999999574, 12.69999999999999574, -12.69999999999999929 ) ) ;
#101 = DIRECTION ( 'NONE',  ( -2.220446049250312588E-16, 1.000000000000000000, 0.000000000000000000 ) ) ;
#102 = AXIS2_PLACEMENT_3D ( 'NONE', #282, #255, #37 ) ;
#103 = CARTESIAN_POINT ( 'NONE',  ( 0.000000000000000000, 0.000000000000000000, 12.69999999999999929 ) ) ;
#104 = PLANE ( 'NONE',  #27 ) ;
#105 = CC_DESIGN_APPROVAL ( #156, ( #72 ) ) ;
#106 = CARTESIAN_POINT ( 'NONE',  ( 12.69999999999999929, -12.69999999999999929, 12.69999999999999929 ) ) ;
#107 = FACE_OUTER_BOUND ( 'NONE', #52, .T. ) ;
#108 = LINE ( 'NONE', #132, #139 ) ;
#109 = DIRECTION ( 'NONE',  ( 0.000000000000000000, 0.000000000000000000, -1.000000000000000000 ) ) ;
#110 = CARTESIAN_POINT ( 'NONE',  ( 12.69999999999999574, 12.69999999999999574, 12.69999999999999929 ) ) ;
#111 = CC_DESIGN_PERSON_AND_ORGANIZATION_ASSIGNMENT ( #237, #42, ( #166 ) ) ;
#112 = VECTOR ( 'NONE', #3, 1000.000000000000000 ) ;
#113 = EDGE_LOOP ( 'NONE', ( #245, #295, #233, #165 ) ) ;
#114 = APPROVAL_ROLE ( '' ) ;
#115 = COORDINATED_UNIVERSAL_TIME_OFFSET ( 8, 0, .AHEAD. ) ;
#116 = ADVANCED_FACE ( 'NONE', ( #6 ), #180, .F. ) ;
#117 = PRODUCT_DEFINITION_SHAPE ( 'NONE', 'NONE',  #10 ) ;
#118 = VERTEX_POINT ( 'NONE', #13 ) ;
#119 = VECTOR ( 'NONE', #178, 1000.000000000000000 ) ;
#120 = ORIENTED_EDGE ( 'NONE', *, *, #316, .T. ) ;
#121 = LINE ( 'NONE', #106, #275 ) ;
#122 = PLANE ( 'NONE',  #222 ) ;
#123 = CARTESIAN_POINT ( 'NONE',  ( 12.69999999999999574, 12.69999999999999574, 12.69999999999999929 ) ) ;
#124 = DIRECTION ( 'NONE',  ( -2.220446049250312588E-16, 1.000000000000000000, 0.000000000000000000 ) ) ;
#125 = CARTESIAN_POINT ( 'NONE',  ( 12.69999999999999929, 12.69999999999999929, -12.69999999999999929 ) ) ;
#126 = DIRECTION ( 'NONE',  ( -0.000000000000000000, 0.000000000000000000, 1.000000000000000000 ) ) ;
#127 = DIRECTION ( 'NONE',  ( 0.000000000000000000, 0.000000000000000000, 1.000000000000000000 ) ) ;
#128 = CC_DESIGN_DATE_AND_TIME_ASSIGNMENT ( #235, #15, ( #10 ) ) ;
#129 = LINE ( 'NONE', #110, #51 ) ;
#130 = DIRECTION ( 'NONE',  ( -0.000000000000000000, -0.000000000000000000, -1.000000000000000000 ) ) ;
#131 = CLOSED_SHELL ( 'NONE', ( #67, #269, #144, #20, #116 ) ) ;
#132 = CARTESIAN_POINT ( 'NONE',  ( -12.69999999999999574, -12.69999999999999396, 12.69999999999999929 ) ) ;
#133 = ORIENTED_EDGE ( 'NONE', *, *, #48, .F. ) ;
#134 = ORIENTED_EDGE ( 'NONE', *, *, #152, .T. ) ;
#135 = APPLICATION_PROTOCOL_DEFINITION ( 'international standard', 'config_control_design', 1994, #321 ) ;
#136 = COORDINATED_UNIVERSAL_TIME_OFFSET ( 8, 0, .AHEAD. ) ;
#137 = ORIENTED_EDGE ( 'NONE', *, *, #236, .F. ) ;
#138 = EDGE_CURVE ( 'NONE', #264, #53, #11, .T. ) ;
#139 = VECTOR ( 'NONE', #256, 1000.000000000000000 ) ;
#140 = CC_DESIGN_PERSON_AND_ORGANIZATION_ASSIGNMENT ( #69, #263, ( #57 ) ) ;
#141 = VERTEX_POINT ( 'NONE', #252 ) ;
#142 = ORIENTED_EDGE ( 'NONE', *, *, #138, .T. ) ;
#143 = COORDINATED_UNIVERSAL_TIME_OFFSET ( 8, 0, .AHEAD. ) ;
#144 = ADVANCED_FACE ( 'NONE', ( #107 ), #104, .F. ) ;
#145 = FACE_OUTER_BOUND ( 'NONE', #159, .T. ) ;
#146 = DIRECTION ( 'NONE',  ( 0.7071067811865475727, -0.7071067811865475727, 0.000000000000000000 ) ) ;
#147 = CARTESIAN_POINT ( 'NONE',  ( 0.000000000000000000, 0.000000000000000000, 12.69999999999999929 ) ) ;
#148 = CC_DESIGN_DATE_AND_TIME_ASSIGNMENT ( #97, #242, ( #72 ) ) ;
#149 = LINE ( 'NONE', #253, #202 ) ;
#150 = PLANE ( 'NONE',  #41 ) ;
#151 = CARTESIAN_POINT ( 'NONE',  ( -12.70000000000000284, 12.70000000000000284, 12.69999999999999929 ) ) ;
#152 = EDGE_CURVE ( 'NONE', #158, #191, #64, .T. ) ;
#153 = ADVANCED_BREP_SHAPE_REPRESENTATION ( 'BK7-BSC-25.4-400-700', ( #289, #168, #287 ), #76 ) ;
#154 = DIRECTION ( 'NONE',  ( 0.000000000000000000, 0.000000000000000000, 1.000000000000000000 ) ) ;
#155 = CARTESIAN_POINT ( 'NONE',  ( 12.69999999999999574, 12.69999999999999574, 12.69999999999999929 ) ) ;
#156 = APPROVAL ( #192, 'UNSPECIFIED' ) ;
#157 = DIRECTION ( 'NONE',  ( -1.000000000000000000, 0.000000000000000000, 0.000000000000000000 ) ) ;
#158 = VERTEX_POINT ( 'NONE', #258 ) ;
#159 = EDGE_LOOP ( 'NONE', ( #298, #293, #25, #94 ) ) ;
#160 = PERSON_AND_ORGANIZATION_ROLE ( 'creator' ) ;
#161 = PERSON_AND_ORGANIZATION_ROLE ( 'classification_officer' ) ;
#162 = LOCAL_TIME ( 11, 18, 32.00000000000000000, #136 ) ;
#163 = ORIENTED_EDGE ( 'NONE', *, *, #274, .T. ) ;
#164 = CALENDAR_DATE ( 2020, 22, 12 ) ;
#165 = ORIENTED_EDGE ( 'NONE', *, *, #48, .T. ) ;
#166 = PRODUCT ( 'BK7-BSC-25.4-400-700', 'BK7-BSC-25.4-400-700', '', ( #16 ) ) ;
#167 = APPROVAL ( #240, 'UNSPECIFIED' ) ;
#168 = MANIFOLD_SOLID_BREP ( '¾µÏ', #247 ) ;
#169 = ORIENTED_EDGE ( 'NONE', *, *, #36, .F. ) ;
#170 = AXIS2_PLACEMENT_3D ( 'NONE', #277, #146, #251 ) ;
#171 = DIRECTION ( 'NONE',  ( 0.000000000000000000, 1.000000000000000000, 0.000000000000000000 ) ) ;
#172 = ADVANCED_FACE ( 'NONE', ( #40 ), #85, .F. ) ;
#173 = PLANE ( 'NONE',  #170 ) ;
#174 = CARTESIAN_POINT ( 'NONE',  ( 12.69999999999999929, 12.69999999999999929, 12.69999999999999929 ) ) ;
#175 = CARTESIAN_POINT ( 'NONE',  ( 12.69999999999999929, 12.69999999999999929, 12.69999999999999929 ) ) ;
#176 = CARTESIAN_POINT ( 'NONE',  ( 12.69999999999999929, 12.69999999999999929, 12.69999999999999929 ) ) ;
#177 = CARTESIAN_POINT ( 'NONE',  ( -12.69999999999999574, -12.69999999999999396, 12.69999999999999929 ) ) ;
#178 = DIRECTION ( 'NONE',  ( 1.000000000000000000, 0.000000000000000000, 0.000000000000000000 ) ) ;
#179 = DIRECTION ( 'NONE',  ( -0.7071067811865474617, -0.7071067811865474617, 0.000000000000000000 ) ) ;
#180 = PLANE ( 'NONE',  #292 ) ;
#181 = PERSON_AND_ORGANIZATION ( #73, #234 ) ;
#182 = EDGE_CURVE ( 'NONE', #260, #270, #108, .T. ) ;
#183 = APPROVAL_DATE_TIME ( #315, #167 ) ;
#184 = CALENDAR_DATE ( 2020, 22, 12 ) ;
#185 = DIRECTION ( 'NONE',  ( 0.000000000000000000, 0.000000000000000000, 1.000000000000000000 ) ) ;
#186 = SECURITY_CLASSIFICATION_LEVEL ( 'unclassified' ) ;
#187 = VECTOR ( 'NONE', #300, 1000.000000000000000 ) ;
#188 = CALENDAR_DATE ( 2020, 22, 12 ) ;
#189 = LOCAL_TIME ( 11, 18, 32.00000000000000000, #313 ) ;
#190 = ORIENTED_EDGE ( 'NONE', *, *, #226, .F. ) ;
#191 = VERTEX_POINT ( 'NONE', #38 ) ;
#192 = APPROVAL_STATUS ( 'not_yet_approved' ) ;
#193 = ORIENTED_EDGE ( 'NONE', *, *, #274, .F. ) ;
#194 = CC_DESIGN_SECURITY_CLASSIFICATION ( #72, ( #57 ) ) ;
#195 = ORIENTED_EDGE ( 'NONE', *, *, #152, .F. ) ;
#196 = CARTESIAN_POINT ( 'NONE',  ( -12.69999999999999751, -12.69999999999999929, 12.69999999999999929 ) ) ;
#197 = EDGE_CURVE ( 'NONE', #270, #54, #129, .T. ) ;
#198 = FACE_OUTER_BOUND ( 'NONE', #244, .T. ) ;
#199 = DIRECTION ( 'NONE',  ( -0.7071067811865475727, -0.7071067811865475727, 0.000000000000000000 ) ) ;
#200 =( LENGTH_UNIT ( ) NAMED_UNIT ( * ) SI_UNIT ( .MILLI., .METRE. ) );
#201 = DIRECTION ( 'NONE',  ( -0.000000000000000000, 0.000000000000000000, 1.000000000000000000 ) ) ;
#202 = VECTOR ( 'NONE', #130, 1000.000000000000000 ) ;
#203 = CARTESIAN_POINT ( 'NONE',  ( 12.69999999999999929, 12.69999999999999929, 12.69999999999999929 ) ) ;
#204 = CARTESIAN_POINT ( 'NONE',  ( 12.69999999999999574, 12.69999999999999574, 12.69999999999999929 ) ) ;
#205 = DIRECTION ( 'NONE',  ( 1.000000000000000000, -2.220446049250312588E-16, 0.000000000000000000 ) ) ;
#206 = LINE ( 'NONE', #125, #266 ) ;
#207 = CARTESIAN_POINT ( 'NONE',  ( -12.69999999999999751, -12.69999999999999929, 12.69999999999999929 ) ) ;
#208 = VECTOR ( 'NONE', #228, 1000.000000000000000 ) ;
#209 = ORIENTED_EDGE ( 'NONE', *, *, #231, .T. ) ;
#210 = CALENDAR_DATE ( 2020, 22, 12 ) ;
#211 = APPROVAL ( #215, 'UNSPECIFIED' ) ;
#212 = ORIENTED_EDGE ( 'NONE', *, *, #236, .T. ) ;
#213 = VECTOR ( 'NONE', #59, 999.9999999999998863 ) ;
#214 = EDGE_LOOP ( 'NONE', ( #312, #120, #134 ) ) ;
#215 = APPROVAL_STATUS ( 'not_yet_approved' ) ;
#216 = ADVANCED_FACE ( 'NONE', ( #301 ), #122, .F. ) ;
#217 = ORIENTED_EDGE ( 'NONE', *, *, #28, .T. ) ;
#218 = EDGE_LOOP ( 'NONE', ( #195, #133, #49, #271 ) ) ;
#219 = APPROVAL_ROLE ( '' ) ;
#220 = FACE_OUTER_BOUND ( 'NONE', #113, .T. ) ;
#221 = ORIENTED_EDGE ( 'NONE', *, *, #28, .F. ) ;
#222 = AXIS2_PLACEMENT_3D ( 'NONE', #204, #39, #127 ) ;
#223 = DIRECTION ( 'NONE',  ( 1.000000000000000000, 0.000000000000000000, 0.000000000000000000 ) ) ;
#224 = DIRECTION ( 'NONE',  ( 0.000000000000000000, 0.000000000000000000, 1.000000000000000000 ) ) ;
#225 = CARTESIAN_POINT ( 'NONE',  ( 12.69999999999999929, -12.69999999999999929, -12.69999999999999929 ) ) ;
#226 = EDGE_CURVE ( 'NONE', #264, #118, #149, .T. ) ;
#227 = DIRECTION ( 'NONE',  ( 0.000000000000000000, 0.000000000000000000, -1.000000000000000000 ) ) ;
#228 = DIRECTION ( 'NONE',  ( -0.000000000000000000, 1.000000000000000000, -0.000000000000000000 ) ) ;
#229 = CARTESIAN_POINT ( 'NONE',  ( 12.69999999999999574, 12.69999999999999574, -12.69999999999999929 ) ) ;
#230 = LINE ( 'NONE', #155, #213 ) ;
#231 = EDGE_CURVE ( 'NONE', #141, #118, #206, .T. ) ;
#232 =( NAMED_UNIT ( * ) SI_UNIT ( $, .STERADIAN. ) SOLID_ANGLE_UNIT ( ) );
#233 = ORIENTED_EDGE ( 'NONE', *, *, #182, .T. ) ;
#234 = ORGANIZATION ( 'UNSPECIFIED', 'UNSPECIFIED', '' ) ;
#235 = DATE_AND_TIME ( #43, #189 ) ;
#236 = EDGE_CURVE ( 'NONE', #54, #260, #230, .T. ) ;
#237 = PERSON_AND_ORGANIZATION ( #73, #234 ) ;
#238 = ORIENTED_EDGE ( 'NONE', *, *, #257, .F. ) ;
#239 = LOCAL_TIME ( 11, 18, 32.00000000000000000, #265 ) ;
#240 = APPROVAL_STATUS ( 'not_yet_approved' ) ;
#241 = ORIENTED_EDGE ( 'NONE', *, *, #182, .F. ) ;
#242 = DATE_TIME_ROLE ( 'classification_date' ) ;
#243 = LOCAL_TIME ( 11, 18, 32.00000000000000000, #143 ) ;
#244 = EDGE_LOOP ( 'NONE', ( #209, #190, #272, #217 ) ) ;
#245 = ORIENTED_EDGE ( 'NONE', *, *, #316, .F. ) ;
#246 = APPROVAL_DATE_TIME ( #296, #156 ) ;
#247 = CLOSED_SHELL ( 'NONE', ( #172, #4, #216, #98, #90 ) ) ;
#248 = AXIS2_PLACEMENT_3D ( 'NONE', #103, #201, #223 ) ;
#249 = CARTESIAN_POINT ( 'NONE',  ( 12.69999999999999929, 12.69999999999999929, -12.69999999999999929 ) ) ;
#250 = DESIGN_CONTEXT ( 'detailed design', #19, 'design' ) ;
#251 = DIRECTION ( 'NONE',  ( 0.7071067811865474617, 0.7071067811865474617, 0.000000000000000000 ) ) ;
#252 = CARTESIAN_POINT ( 'NONE',  ( 12.69999999999999929, 12.69999999999999929, -12.69999999999999929 ) ) ;
#253 = CARTESIAN_POINT ( 'NONE',  ( -12.69999999999999751, -12.69999999999999929, 12.69999999999999929 ) ) ;
#254 = CARTESIAN_POINT ( 'NONE',  ( 0.000000000000000000, 0.000000000000000000, -12.69999999999999929 ) ) ;
#255 = DIRECTION ( 'NONE',  ( -0.7071067811865475727, 0.7071067811865475727, 0.000000000000000000 ) ) ;
#256 = DIRECTION ( 'NONE',  ( -2.220446049250312588E-16, 1.000000000000000000, 0.000000000000000000 ) ) ;
#257 = EDGE_CURVE ( 'NONE', #118, #273, #86, .T. ) ;
#258 = CARTESIAN_POINT ( 'NONE',  ( -12.70000000000000284, 12.70000000000000284, -12.69999999999999929 ) ) ;
#259 = AXIS2_PLACEMENT_3D ( 'NONE', #254, #224, #307 ) ;
#260 = VERTEX_POINT ( 'NONE', #302 ) ;
#261 = VECTOR ( 'NONE', #179, 1000.000000000000114 ) ;
#262 = APPROVAL_ROLE ( '' ) ;
#263 = PERSON_AND_ORGANIZATION_ROLE ( 'design_supplier' ) ;
#264 = VERTEX_POINT ( 'NONE', #196 ) ;
#265 = COORDINATED_UNIVERSAL_TIME_OFFSET ( 8, 0, .AHEAD. ) ;
#266 = VECTOR ( 'NONE', #63, 1000.000000000000114 ) ;
#267 = EDGE_LOOP ( 'NONE', ( #137, #297, #241 ) ) ;
#268 = ORIENTED_EDGE ( 'NONE', *, *, #96, .F. ) ;
#269 = ADVANCED_FACE ( 'NONE', ( #145 ), #35, .F. ) ;
#270 = VERTEX_POINT ( 'NONE', #151 ) ;
#271 = ORIENTED_EDGE ( 'NONE', *, *, #36, .T. ) ;
#272 = ORIENTED_EDGE ( 'NONE', *, *, #311, .F. ) ;
#273 = VERTEX_POINT ( 'NONE', #225 ) ;
#274 = EDGE_CURVE ( 'NONE', #273, #141, #65, .T. ) ;
#275 = VECTOR ( 'NONE', #56, 1000.000000000000000 ) ;
#276 = LINE ( 'NONE', #177, #88 ) ;
#277 = CARTESIAN_POINT ( 'NONE',  ( 12.69999999999999929, 12.69999999999999929, 12.69999999999999929 ) ) ;
#278 = CC_DESIGN_APPROVAL ( #211, ( #57 ) ) ;
#279 = DIRECTION ( 'NONE',  ( -0.000000000000000000, 1.000000000000000000, -0.000000000000000000 ) ) ;
#280 = DIRECTION ( 'NONE',  ( -0.000000000000000000, -0.000000000000000000, -1.000000000000000000 ) ) ;
#281 = PLANE ( 'NONE',  #259 ) ;
#282 = CARTESIAN_POINT ( 'NONE',  ( 12.69999999999999574, 12.69999999999999574, 12.69999999999999929 ) ) ;
#283 = VECTOR ( 'NONE', #199, 999.9999999999998863 ) ;
#284 = DIRECTION ( 'NONE',  ( 1.000000000000000000, 0.000000000000000000, 0.000000000000000000 ) ) ;
#285 = PRODUCT_RELATED_PRODUCT_CATEGORY ( 'detail', '', ( #166 ) ) ;
#286 = LINE ( 'NONE', #306, #79 ) ;
#287 = AXIS2_PLACEMENT_3D ( 'NONE', #89, #185, #71 ) ;
#288 = APPROVAL_DATE_TIME ( #317, #211 ) ;
#289 = MANIFOLD_SOLID_BREP ( 'Í¹Ì¨-À', #131 ) ;
#290 = APPLICATION_PROTOCOL_DEFINITION ( 'international standard', 'config_control_design', 1994, #19 ) ;
#291 = PERSON_AND_ORGANIZATION ( #73, #234 ) ;
#292 = AXIS2_PLACEMENT_3D ( 'NONE', #87, #126, #284 ) ;
#293 = ORIENTED_EDGE ( 'NONE', *, *, #50, .F. ) ;
#294 = VERTEX_POINT ( 'NONE', #7 ) ;
#295 = ORIENTED_EDGE ( 'NONE', *, *, #318, .F. ) ;
#296 = DATE_AND_TIME ( #164, #243 ) ;
#297 = ORIENTED_EDGE ( 'NONE', *, *, #197, .F. ) ;
#298 = ORIENTED_EDGE ( 'NONE', *, *, #257, .T. ) ;
#299 = DIRECTION ( 'NONE',  ( 0.000000000000000000, -0.000000000000000000, 1.000000000000000000 ) ) ;
#300 = DIRECTION ( 'NONE',  ( 0.000000000000000000, 0.000000000000000000, -1.000000000000000000 ) ) ;
#301 = FACE_OUTER_BOUND ( 'NONE', #218, .T. ) ;
#302 = CARTESIAN_POINT ( 'NONE',  ( -12.69999999999999574, -12.69999999999999396, 12.69999999999999929 ) ) ;
#303 = LINE ( 'NONE', #175, #70 ) ;
#304 = FACE_OUTER_BOUND ( 'NONE', #214, .T. ) ;
#305 = LINE ( 'NONE', #174, #261 ) ;
#306 = CARTESIAN_POINT ( 'NONE',  ( 12.69999999999999929, 12.69999999999999929, 12.69999999999999929 ) ) ;
#307 = DIRECTION ( 'NONE',  ( -2.220446049250312588E-16, 1.000000000000000000, 0.000000000000000000 ) ) ;
#308 = AXIS2_PLACEMENT_3D ( 'NONE', #30, #83, #34 ) ;
#309 = APPROVAL_PERSON_ORGANIZATION ( #68, #167, #262 ) ;
#310 = FACE_OUTER_BOUND ( 'NONE', #267, .T. ) ;
#311 = EDGE_CURVE ( 'NONE', #95, #264, #305, .T. ) ;
#312 = ORIENTED_EDGE ( 'NONE', *, *, #96, .T. ) ;
#313 = COORDINATED_UNIVERSAL_TIME_OFFSET ( 8, 0, .AHEAD. ) ;
#314 = APPROVAL_PERSON_ORGANIZATION ( #91, #211, #114 ) ;
#315 = DATE_AND_TIME ( #210, #23 ) ;
#316 = EDGE_CURVE ( 'NONE', #294, #158, #84, .T. ) ;
#317 = DATE_AND_TIME ( #184, #162 ) ;
#318 = EDGE_CURVE ( 'NONE', #260, #294, #276, .T. ) ;
#319 = SHAPE_DEFINITION_REPRESENTATION ( #117, #153 ) ;
#320 = PLANE ( 'NONE',  #308 ) ;
#321 = APPLICATION_CONTEXT ( 'configuration controlled 3d designs of mechanical parts and assemblies' ) ;
ENDSEC;
END-ISO-10303-21;
